Yabancı Akor ve Tab İstek Bölümü

Yeni Başlık Gönder Cevap Gönder « Önceki başlıkSonraki başlık »
Sayfa::  1
 Yazar  Mesaj
[email protected]



Kayıt: 16.06.2005
Üye No: 14,771
Şehir: .: Rock City .:
Offline




Tarih: 07 Temmuz 2006, 08:50 Tek mesaj gösterimi1

Arkadaşlar İstediğiniz Yabancı Akor Ve tab var ise yardımcı Olabilirim Müzik dinliyorum




_________________
A band famous for playing Metallica with four cellos. - Apocalyptica

 Kullanıcı bilgilerini göster Özel mesaj gönder Alıntıyla Cevap Gönder Başa dön 
troublemaker



Kayıt: 30.07.2005
Üye No: 21,631
Şehir: istanbul
Offline




Tarih: 24 Temmuz 2006, 21:57 Tek mesaj gösterimi2

Pearl Jam - Alive ve Black alabilirmiyim lütfennn Hehehehe
 Kullanıcı bilgilerini göster Özel mesaj gönder Alıntıyla Cevap Gönder Başa dön 
sidargunes



Kayıt: 25.02.2006
Üye No: 50,359
Offline




Tarih: 31 Ağustos 2006, 21:31 Tek mesaj gösterimi3

abicim yaa gökhan diye bi amatörün bilmezdim diye bi şarkısı var ki sormayın inanılmaz,allah aşkına lütfen bulup koyablirmisin ya
 Kullanıcı bilgilerini göster Özel mesaj gönder Alıntıyla Cevap Gönder Başa dön 
[email protected]



Kayıt: 16.06.2005
Üye No: 14,771
Şehir: .: Rock City .:
Offline




Tarih: 03 Eylül 2006, 23:57 Tek mesaj gösterimi4

« sidargunes » demiş ki:
abicim yaa gökhan diye bi amatörün bilmezdim diye bi şarkısı var ki sormayın inanılmaz,allah aşkına lütfen bulup koyablirmisin ya


Arkadaşım Farkettiyse başlıkta "Yabancı Akor ve Tab İstek Bölümü" Yazıyor.




_________________
A band famous for playing Metallica with four cellos. - Apocalyptica

 Kullanıcı bilgilerini göster Özel mesaj gönder Alıntıyla Cevap Gönder Başa dön 
mikail_kelle



Kayıt: 16.06.2006
Üye No: 63,874
Offline




Tarih: 11 Eylül 2006, 09:35 Tek mesaj gösterimi5

nirvanadan smells like teen spiriti bulursan cok sewinirim Utandı
 Kullanıcı bilgilerini göster Özel mesaj gönder Alıntıyla Cevap Gönder Başa dön 
[email protected]



Kayıt: 16.06.2005
Üye No: 14,771
Şehir: .: Rock City .:
Offline




Tarih: 27 Eylül 2006, 21:47 Tek mesaj gösterimi6

« mikail_kelle » demiş ki:
nirvanadan smells like teen spiriti bulursan cok sewinirim Utandı


Smells Like Teen Spirit -- Solo

2X
E|--------------------------------------------
B|--------------------------------------------
G|----8-10---8/8b\8-6-5-----------------------
D|-10------6-----------11-10-8-6-11/11b\11-6-5
A|--------------------------------------------
E|--------------------------------------------

1X
E|--------------
B|--------------
G|--------------
D|-6-5-6-5-6-5-3
A|--------------
E|--------------

3X
E|-------------------|
B|-------------------|
G|-------------------|
D|-6-5-6-5-6-5-6-5-3-|
A|-------------------|
E|-------------------|


------------------------------------------------------------------------------------------------

Standard Tuning

^ = Bend
x = mute note
h = hammer-on
~ = vibrato

INTRO:
Guitar (clean):
e|-----------------|------------------|-----------------|------------------|
B|-----------------|------------------|-----------------|------------------|
G|-------------3-3-|-0------------6-6-|-------------3-3-|-0------------6-6-|
D|-3--3-3-xxxx-3-3-|-06--6-6-xxxx-6-6-|-3--3-3-xxxx-3-3-|-06--6-6-xxxx-6-6-|
A|-3--3-3-xxxx-1-1-|-06--6-6-xxxx-4-4-|-3--3-3-xxxx-1-1-|-06--6-6-xxxx-4-4-|
E|-1--1-1-xxxx-----|--4--4-4-xxxx-----|-1--1-1-xxxx-----|--4--4-4-xxxx-----|

Guitar (heavy dist)
e|-----------------|------------------|-----------------|------------------|
B|-----------------|------------------|-----------------|------------------|
G|-------------3-3-|-0------------6-6-|-------------3-3-|-0------------6-6-|
D|-3--3-3-xxxx-3-3-|-06--6-6-xxxx-6-6-|-3--3-3-xxxx-3-3-|-06--6-6-xxxx-6-6-|
A|-3--3-3-xxxx-1-1-|-06--6-6-xxxx-4-4-|-3--3-3-xxxx-1-1-|-06--6-6-xxxx-4-4-|
E|-1--1-1-xxxx-----|--4--4-4-xxxx-----|-1--1-1-xxxx-----|--4--4-4-xxxx-----|

e|-----------------|------------------|-----------------|------------------|
B|-----------------|------------------|-----------------|------------------|
G|-------------3-3-|-0------------6-6-|-------------3-3-|-0------------6-6-|
D|-3--3-3-xxxx-3-3-|-06--6-6-xxxx-6-6-|-3--3-3-xxxx-3-3-|-06--6-6-xxxx-6-6-|
A|-3--3-3-xxxx-1-1-|-06--6-6-xxxx-4-4-|-3--3-3-xxxx-1-1-|-06--6-6-xxxx-4-4-|
E|-1--1-1-xxxx-----|--4--4-4-xxxx-----|-1--1-1-xxxx-----|--4--4-4-xxxx-----|

VERSE:
Bass:
G|-----------------|-----------------|-----------------|-----------------|
D|-----------------|-----------------|-----------------|-----------------|
A|---------1-1-1-1-|---------4-4-4-4-|---------1-1-1-1-|---------4-4-4-4-|
E|-1-1-1-1---------|-4-4-4-4---------|-1-1-1-1---------|-4-4-4-4---------|

Guitar:
e|---------1-------|-----------------|---------1-------|-----------------|
B|--------1--------|-----------------|--------1--------|-----------------|
G|-----------------|-----------------|-----------------|-----------------|
D|-----------------|-----------------|-----------------|-----------------|
A|-----------------|-----------------|-----------------|-----------------|
E|-----------------|-----------------|-----------------|-----------------|

Bass:
G|-----------------|-----------------|-----------------|-----------------|
D|-----------------|-----------------|-----------------|-----------------|
A|---------1-1-1-1-|---------4-4-4-4-|---------1-1-1-1-|---------4-4-4-4-|
E|-1-1-1-1---------|-4-4-4-4---------|-1-1-1-1---------|-4-4-4-4---------|

Guitar:
e|---------1-------|-----------------|---------1-------|-----------------|
B|--------1--------|-----------------|--------1--------|-----------------|
G|-----------------|-----------------|-----------------|-----------------|
D|-----------------|-----------------|-----------------|-----------------|
A|-----------------|-----------------|-----------------|-----------------|
E|-----------------|-----------------|-----------------|-----------------|
Load up on guns, and bring your friends its fun to lose

Bass:
G|-----------------|-----------------|-----------------|-----------------|
D|-----------------|-----------------|-----------------|-----------------|
A|---------1-1-1-1-|---------4-4-4-4-|---------1-1-1-1-|---------4-4-4-4-|
E|-1-1-1-1---------|-4-4-4-4---------|-1-1-1-1---------|-4-4-4-4---------|

Guitar:
e|---------1-------|-----------------|---------1-------|-----------------|
B|--------1--------|-----------------|--------1--------|-----------------|
G|-----------------|-----------------|-----------------|-----------------|
D|-----------------|-----------------|-----------------|-----------------|
A|-----------------|-----------------|-----------------|-----------------|
E|-----------------|-----------------|-----------------|-----------------|
and to pretend, She's over bored and self-assured, I know I know a dirty word

PRECHORUS
Bass:
G|-----------------|-----------------|-----------------|-----------------|
D|-----------------|-----------------|-----------------|-----------------|
A|---------1-1-1-1-|---------4-4-4-4-|---------1-1-1-1-|---------4-4-4-4-|
E|-1-1-1-1---------|-4-4-4-4---------|-1-1-1-1---------|-4-4-4-4---------|

Guitar:
e|---6---6---6---6-|---6---6---6---6-|---6---6---6---6-|---6---6---6---6-|
B|-5---5---5---5---|-5---5---5---5---|-5---5---5---5---|-5---5---5---5---|
G|-----------------|-----------------|-----------------|-----------------|
D|-----------------|-----------------|-----------------|-----------------|
A|-----------------|-----------------|-----------------|-----------------|
E|-----------------|-----------------|-----------------|-----------------|

Hello hello hello | Hello hello hello| Hello, hello, hello| Hello, hello, hello
how low how low how low

Guitar:
e|-----------------|------------------|-----------------|------------------|
B|-----------------|------------------|-----------------|------------------|
G|-------------3-3-|-0------------6-6-|-------------3-3-|-0------------6-6-|
D|-3--3-3-xxxx-3-3-|-06--6-6-xxxx-6-6-|-3--3-3-xxxx-3-3-|-06--6-6-xxxx-6-6-|
A|-3--3-3-xxxx-1-1-|-06--6-6-xxxx-4-4-|-3--3-3-xxxx-1-1-|-06--6-6-xxxx-4-4-|
E|-1--1-1-xxxx-----|--4--4-4-xxxx-----|-1--1-1-xxxx-----|--4--4-4-xxxx-----|

With the lights out, its less dangerous here we are now, entertain us

e|-----------------|------------------|-----------------|------------------|
B|-----------------|------------------|-----------------|------------------|
G|-------------3-3-|-0------------6-6-|-------------3-3-|-0------------6-6-|
D|-3--3-3-xxxx-3-3-|-06--6-6-xxxx-6-6-|-3--3-3-xxxx-3-3-|-06--6-6-xxxx-6-6-|
A|-3--3-3-xxxx-1-1-|-06--6-6-xxxx-4-4-|-3--3-3-xxxx-1-1-|-06--6-6-xxxx-4-4-|
E|-1--1-1-xxxx-----|--4--4-4-xxxx-----|-1--1-1-xxxx-----|--4--4-4-xxxx-----|

I feel stupid, and contagious, here we are now, entertain us

e|-----------------|------------------|-----------------|------------------|
B|-----------------|------------------|-----------------|------------------|
G|-------------3-3-|-0------------6-6-|-------------3-3-|-0------------6-6-|
D|-3--3-3-xxxx-3-3-|-06--6-6-xxxx-6-6-|-3--3-3-xxxx-3-3-|-06--6-6-xxxx-6-6-|
A|-3--3-3-xxxx-1-1-|-06--6-6-xxxx-4-4-|-3--3-3-xxxx-1-1-|-06--6-6-xxxx-4-4-|
E|-1--1-1-xxxx-----|--4--4-4-xxxx-----|-1--1-1-xxxx-----|--4--4-4-xxxx-----|

A mulatto, An albino A mosquito My libido, yeah

e|---------------|----------------|---------------|----------------|
B|---------------|----------------|---------------|----------------|
G|-------------3^|-------3-3------|-------------3^|-------3-3------|
D|-3--3-3-4-4----|-3-3-3-3-3--6-6-|-3--3-3-4-4----|-3-3-3-3-3--6-6-|
A|-3--3-3-4-4----|-3-3-3-1-1--6-6-|-3--3-3-4-4----|-3-3-3-1-1--6-6-|
E|-1--1-1-2-2----|-1-1-1------4-4-|-1--1-1-2-2----|-1-1-1------4-4-|
hey! hey!

Bass:
G|-----------------|-----------------|-----------------|-----------------|
D|-----------------|-----------------|-----------------|-----------------|
A|---------1-1-1-1-|---------4-4-4-4-|---------1-1-1-1-|---------4-4-4-4-|
E|-1-1-1-1---------|-4-4-4-4---------|-1-1-1-1---------|-4-4-4-4---------|

Guitar:
e|---------1-------|-----------------|---------1-------|-----------------|
B|--------1--------|-----------------|--------1--------|-----------------|
G|-----------------|-----------------|-----------------|-----------------|
D|-----------------|-----------------|-----------------|-----------------|
A|-----------------|-----------------|-----------------|-----------------|
E|-----------------|-----------------|-----------------|-----------------|

Bass:
G|-----------------|-----------------|-----------------|-----------------|
D|-----------------|-----------------|-----------------|-----------------|
A|---------1-1-1-1-|---------4-4-4-4-|---------1-1-1-1-|---------4-4-4-4-|
E|-1-1-1-1---------|-4-4-4-4---------|-1-1-1-1---------|-4-4-4-4---------|

Guitar:
e|---------1-------|-----------------|---------1-------|-----------------|
B|--------1--------|-----------------|--------1--------|-----------------|
G|-----------------|-----------------|-----------------|-----------------|
D|-----------------|-----------------|-----------------|-----------------|
A|-----------------|-----------------|-----------------|-----------------|
E|-----------------|-----------------|-----------------|-----------------|
I'm worse at what what I do best, and for this gift I feel blessed

Bass:
G|-----------------|-----------------|-----------------|-----------------|
D|-----------------|-----------------|-----------------|-----------------|
A|---------1-1-1-1-|---------4-4-4-4-|---------1-1-1-1-|---------4-4-4-4-|
E|-1-1-1-1---------|-4-4-4-4---------|-1-1-1-1---------|-4-4-4-4---------|

Guitar:
e|---------1-------|-----------------|---------1-------|-----------------|
B|--------1--------|-----------------|--------1--------|-----------------|
G|-----------------|-----------------|-----------------|-----------------|
D|-----------------|-----------------|-----------------|-----------------|
A|-----------------|-----------------|-----------------|-----------------|
E|-----------------|-----------------|-----------------|-----------------|
our little group, has always been, and always will until the end

PRECHORUS
Bass:
G|-----------------|-----------------|-----------------|-----------------|
D|-----------------|-----------------|-----------------|-----------------|
A|---------1-1-1-1-|---------4-4-4-4-|---------1-1-1-1-|---------4-4-4-4-|
E|-1-1-1-1---------|-4-4-4-4---------|-1-1-1-1---------|-4-4-4-4---------|

Guitar:
e|---6---6---6---6-|---6---6---6---6-|---6---6---6---6-|---6---6---6---6-|
B|-5---5---5---5---|-5---5---5---5---|-5---5---5---5---|-5---5---5---5---|
G|-----------------|-----------------|-----------------|-----------------|
D|-----------------|-----------------|-----------------|-----------------|
A|-----------------|-----------------|-----------------|-----------------|
E|-----------------|-----------------|-----------------|-----------------|

Hello hello hello | Hello hello hello| Hello, hello, hello| Hello, hello, hello
how low how low how low

Guitar:
e|-----------------|------------------|-----------------|------------------|
B|-----------------|------------------|-----------------|------------------|
G|-------------3-3-|-0------------6-6-|-------------3-3-|-0------------6-6-|
D|-3--3-3-xxxx-3-3-|-06--6-6-xxxx-6-6-|-3--3-3-xxxx-3-3-|-06--6-6-xxxx-6-6-|
A|-3--3-3-xxxx-1-1-|-06--6-6-xxxx-4-4-|-3--3-3-xxxx-1-1-|-06--6-6-xxxx-4-4-|
E|-1--1-1-xxxx-----|--4--4-4-xxxx-----|-1--1-1-xxxx-----|--4--4-4-xxxx-----|

With the lights out, its less dangerous here we are now, entertain us

e|-----------------|------------------|-----------------|------------------|
B|-----------------|------------------|-----------------|------------------|
G|-------------3-3-|-0------------6-6-|-------------3-3-|-0------------6-6-|
D|-3--3-3-xxxx-3-3-|-06--6-6-xxxx-6-6-|-3--3-3-xxxx-3-3-|-06--6-6-xxxx-6-6-|
A|-3--3-3-xxxx-1-1-|-06--6-6-xxxx-4-4-|-3--3-3-xxxx-1-1-|-06--6-6-xxxx-4-4-|
E|-1--1-1-xxxx-----|--4--4-4-xxxx-----|-1--1-1-xxxx-----|--4--4-4-xxxx-----|

I feel stupid, and contagious, here we are now, entertain us

e|-----------------|------------------|-----------------|------------------|
B|-----------------|------------------|-----------------|------------------|
G|-------------3-3-|-0------------6-6-|-------------3-3-|-0------------6-6-|
D|-3--3-3-xxxx-3-3-|-06--6-6-xxxx-6-6-|-3--3-3-xxxx-3-3-|-06--6-6-xxxx-6-6-|
A|-3--3-3-xxxx-1-1-|-06--6-6-xxxx-4-4-|-3--3-3-xxxx-1-1-|-06--6-6-xxxx-4-4-|
E|-1--1-1-xxxx-----|--4--4-4-xxxx-----|-1--1-1-xxxx-----|--4--4-4-xxxx-----|

A mulatto, An albino A mosquito My libido, yeah

e|---------------|----------------|---------------|----------------|
B|---------------|----------------|---------------|----------------|
G|-------------3^|-------3-3------|-------------3^|-------3-3------|
D|-3--3-3-4-4----|-3-3-3-3-3--6-6-|-3--3-3-4-4----|-3-3-3-3-3--6-6-|
A|-3--3-3-4-4----|-3-3-3-1-1--6-6-|-3--3-3-4-4----|-3-3-3-1-1--6-6-|
E|-1--1-1-2-2----|-1-1-1------4-4-|-1--1-1-2-2----|-1-1-1------4-4-|
hey! hey!

Guitar One (Solo):
-Guitar Two plays chorus riff 6 times
e|--------------|---------------|-------------|-------------|
B|--------------|---------------|-------------|-------------|
G|-----8h10-----|-8-8^----6--5--|-6--5--------|-------------|
D|-10--------6--|---------------|-------8-6-8-|-8^----6--5--|
A|--------------|---------------|-------------|-------------|
E|--------------|---------------|-------------|-------------|

e|--------------|---------------|-------------|-------------|
B|--------------|---------------|-------------|-------------|
G|-----8h10-----|-8-8^----6--5--|-6--5--------|-------------|
D|-10--------6--|---------------|-------8-6-8-|-8^----6--5--|
A|--------------|---------------|-------------|-------------|
E|--------------|---------------|-------------|-------------|

e|-------------|--------------|-------------|--------------|
B|-------------|--------------|-------------|--------------|
G|-------------|--------------|-------------|--------------|
D|-6--5--6--5--|-6--5--6/5----|-6--5--6--5--|-6--5--6/5----|
A|-------------|-----------8--|-------------|-----------8~~|
E|-------------|--------------|-------------|--------------|

VERSE:
Bass:
G|-----------------|-----------------|-----------------|-----------------|
D|-----------------|-----------------|-----------------|-----------------|
A|---------1-1-1-1-|---------4-4-4-4-|---------1-1-1-1-|---------4-4-4-4-|
E|-1-1-1-1---------|-4-4-4-4---------|-1-1-1-1---------|-4-4-4-4---------|

G|-----------------|-----------------|-----------------|-----------------|
D|-----------------|-----------------|-----------------|-----------------|
A|---------1-1-1-1-|---------4-4-4-4-|---------1-1-1-1-|---------4-4-4-4-|
E|-1-1-1-1---------|-4-4-4-4---------|-1-1-1-1---------|-4-4-4-4---------|
And I forget just what it takes and yet I guess it makes me smile

G|-----------------|-----------------|-----------------|-----------------|
D|-----------------|-----------------|-----------------|-----------------|
A|---------1-1-1-1-|---------4-4-4-4-|---------1-1-1-1-|---------4-4-4-4-|
E|-1-1-1-1---------|-4-4-4-4---------|-1-1-1-1---------|-4-4-4-4---------|
I've found it hard, its hard to find, oh well whatever never mind

PRECHORUS
Bass:
G|-----------------|-----------------|-----------------|-----------------|
D|-----------------|-----------------|-----------------|-----------------|
A|---------1-1-1-1-|---------4-4-4-4-|---------1-1-1-1-|---------4-4-4-4-|
E|-1-1-1-1---------|-4-4-4-4---------|-1-1-1-1---------|-4-4-4-4---------|

Guitar:
e|---6---6---6---6-|---6---6---6---6-|---6---6---6---6-|---6---6---6---6-|
B|-5---5---5---5---|-5---5---5---5---|-5---5---5---5---|-5---5---5---5---|
G|-----------------|-----------------|-----------------|-----------------|
D|-----------------|-----------------|-----------------|-----------------|
A|-----------------|-----------------|-----------------|-----------------|
E|-----------------|-----------------|-----------------|-----------------|

Hello hello hello | Hello hello hello| Hello, hello, hello| Hello, hello, hello
how low how low how low

Guitar:
e|-----------------|------------------|-----------------|------------------|
B|-----------------|------------------|-----------------|------------------|
G|-------------3-3-|-0------------6-6-|-------------3-3-|-0------------6-6-|
D|-3--3-3-xxxx-3-3-|-06--6-6-xxxx-6-6-|-3--3-3-xxxx-3-3-|-06--6-6-xxxx-6-6-|
A|-3--3-3-xxxx-1-1-|-06--6-6-xxxx-4-4-|-3--3-3-xxxx-1-1-|-06--6-6-xxxx-4-4-|
E|-1--1-1-xxxx-----|--4--4-4-xxxx-----|-1--1-1-xxxx-----|--4--4-4-xxxx-----|

With the lights out, its less dangerous here we are now, entertain us

e|-----------------|------------------|-----------------|------------------|
B|-----------------|------------------|-----------------|------------------|
G|-------------3-3-|-0------------6-6-|-------------3-3-|-0------------6-6-|
D|-3--3-3-xxxx-3-3-|-06--6-6-xxxx-6-6-|-3--3-3-xxxx-3-3-|-06--6-6-xxxx-6-6-|
A|-3--3-3-xxxx-1-1-|-06--6-6-xxxx-4-4-|-3--3-3-xxxx-1-1-|-06--6-6-xxxx-4-4-|
E|-1--1-1-xxxx-----|--4--4-4-xxxx-----|-1--1-1-xxxx-----|--4--4-4-xxxx-----|

I feel stupid, and contagious, here we are now, entertain us

e|-----------------|------------------|-----------------|------------------|
B|-----------------|------------------|-----------------|------------------|
G|-------------3-3-|-0------------6-6-|-------------3-3-|-0------------6-6-|
D|-3--3-3-xxxx-3-3-|-06--6-6-xxxx-6-6-|-3--3-3-xxxx-3-3-|-06--6-6-xxxx-6-6-|
A|-3--3-3-xxxx-1-1-|-06--6-6-xxxx-4-4-|-3--3-3-xxxx-1-1-|-06--6-6-xxxx-4-4-|
E|-1--1-1-xxxx-----|--4--4-4-xxxx-----|-1--1-1-xxxx-----|--4--4-4-xxxx-----|

A mulatto, An albino A mosquito My libido,

e|-----------------|------------------|-----------------|------------------|
B|-----------------|------------------|-----------------|------------------|
G|-------------3-3-|-0------------6-6-|-------------3-3-|-0------------6-6-|
D|-3--3-3-xxxx-3-3-|-06--6-6-xxxx-6-6-|-3--3-3-xxxx-3-3-|-06--6-6-xxxx-6-6-|
A|-3--3-3-xxxx-1-1-|-06--6-6-xxxx-4-4-|-3--3-3-xxxx-1-1-|-06--6-6-xxxx-4-4-|
E|-1--1-1-xxxx-----|--4--4-4-xxxx-----|-1--1-1-xxxx-----|--4--4-4-xxxx-----|

A denial A denial A denial A denial

e|-----------------|------------------|-----------------|------------------|
B|-----------------|------------------|-----------------|------------------|
G|-------------3-3-|-0------------6-6-|-------------3-3-|-0------------6-6-|
D|-3--3-3-xxxx-3-3-|-06--6-6-xxxx-6-6-|-3--3-3-xxxx-3-3-|-06--6-6-xxxx-6-6-|
A|-3--3-3-xxxx-1-1-|-06--6-6-xxxx-4-4-|-3--3-3-xxxx-1-1-|-06--6-6-xxxx-4-4-|
E|-1--1-1-xxxx-----|--4--4-4-xxxx-----|-1--1-1-xxxx-----|--4--4-4-xxxx-----|

A denial A denial A denial A denial

e|--------------|--------------|
B|--------------|--------------|
G|--------------|--------------|
D|-3------------|--------------|
A|-3------------|--------------|
E|-1------------|--------------|
A denial....................




_________________
A band famous for playing Metallica with four cellos. - Apocalyptica

 Kullanıcı bilgilerini göster Özel mesaj gönder Alıntıyla Cevap Gönder Başa dön 
mikail_kelle



Kayıt: 16.06.2006
Üye No: 63,874
Offline




Tarih: 01 Ekim 2006, 11:46 Tek mesaj gösterimi7

cok sagol Utandı ellerine saglık Saygılar
 Kullanıcı bilgilerini göster Özel mesaj gönder Alıntıyla Cevap Gönder Başa dön 
ozingajr



Kayıt: 09.03.2005
Üye No: 642
Offline




Tarih: 24 Kasım 2006, 00:01 Tek mesaj gösterimi8

walla bn ''robert tupper - no easy way out'' isterim akor we tab ını mumknse tesekkurler...
 Kullanıcı bilgilerini göster Özel mesaj gönder Alıntıyla Cevap Gönder Başa dön 
bluemirror84



Kayıt: 25.12.2007
Üye No: 100,243
Offline




Tarih: 25 Aralık 2007, 17:41 Tek mesaj gösterimi9

bon jovi - bells of freedom şarkısının akoru lazım..tşkler..
 Kullanıcı bilgilerini göster Özel mesaj gönder Alıntıyla Cevap Gönder Başa dön 
[email protected]



Kayıt: 16.06.2005
Üye No: 14,771
Şehir: .: Rock City .:
Offline




Tarih: 03 Şubat 2008, 21:02 Tek mesaj gösterimi10

« bluemirror84 » demiş ki:
bon jovi - bells of freedom şarkısının akoru lazım..tşkler..



-----Bm-------G-----------D-----------A
I have walked all alone on these streets I call home
--------Bm------------G
Streets of hope, streets of fear
---------D-------A---------Bm-----Bm/A
Through the sidewalk cracks, time disappears

-------Bm-------G--------D----------A
I was lost on my knees only if hugged the field
------Bm-----------G---------D-----A----------------Bm
As I chocked back to tears, there's a silent scream no one could hear

(Bridge)
G------------A
So far away from everything, you know it's true
G---------------------A
Something inside that makes you do what you got to do

(Chorus)
-------D--------------A
Ring the bells, ring them loud
-------Bm----------G
Let them ring here and now
---------D------A--------------Bm------G
Just reach out and ring the bells of freedom
---------D-------------A-------------Bm--------G
When your world's crashing down like you've lost every round
--------D
Stand the ground
---A---------------G
And ring the bells of freedom

(VERSE)
-----Bm---------G---------------D----------A
Up the steps of the church, through the fields in the dirt
-----Bm---------G---------D--------A----------------Bm
In the dark I have seen that the sun still shines for the one who believe

(Bridge)
G-------------A
So far away, so full of doubt
You needed proof
G-------------------A
Just close your eyes and hear the sound inside of you

(Chorus)
-------D-------------A
Ring the bells, ring them loud
-------Bm----------G
Let them ring here and now
--------D-------A--------------Bm-----G
Just reach out and ring the bells of freedom
--------D------------A-------------Bm-------G
When your world's crashing down like you've lost every round
--------D
Stand the ground
,--A---------------G
And ring the bells of freedom

(Solo)
D-- A-- Bm-- G
D-- A-- G

(Bridge)
-------D-------------A
Ring the bells, ring them loud
------Bm----------G
Let'em ring here and now
----D----------A-------------Bm
Just reach out and ring the bells of freedom

When your world's crashing down like you've lost every round
-------D
Stand the ground
----A---------------G
And ring the bells of freedom


(Chorus)
-------D-------------A
Ring the bells, ring them loud
-------Bm---------G
Let them ring here and now
---------D-----A ----------Bm-----G----D---A---Bm----G---D---A----G...
Just reach out and ring the bells of freedom




_________________
A band famous for playing Metallica with four cellos. - Apocalyptica

 Kullanıcı bilgilerini göster Özel mesaj gönder Alıntıyla Cevap Gönder Başa dön 
Mesajları göster:   
Yeni Başlık Gönder Cevap Gönder 1. sayfa (Toplam 2 sayfa) [Bu başlıkta 13 mesaj bulunuyor]
Sayfa::  1
« Önceki başlıkSonraki başlık »


Bu forumda yeni konular açamazsınız
Bu forumdaki mesajlara cevap veremezsiniz
Bu forumdaki mesajlarınızı değiştiremezsiniz
Bu forumdaki mesajlarınızı silemezsiniz
Bu forumdaki anketlerde oy kullanamazsınız
Bu foruma eklenti dosyaları gönderemezsiniz
Bu forumdaki dosyaları indiremezsiniz
TurkBoard çerezlerini temizle